  0
SECTION
  2
HEADER
  9
$ACADVER
  1
AC1015
  9
$ACADMAINTVER
 70
     6
  9
$DWGCODEPAGE
  3
ANSI_1254
  9
$INSBASE
 10
0.0
 20
0.0
 30
0.0
  9
$EXTMIN
 10
0.0
 20
0.0
 30
0.0
  9
$EXTMAX
 10
279.4
 20
215.9
 30
0.0
  9
$LIMMIN
 10
0.0
 20
0.0
  9
$LIMMAX
 10
279.4
 20
215.9
  9
$ORTHOMODE
 70
     0
  9
$REGENMODE
 70
     1
  9
$FILLMODE
 70
     1
  9
$QTEXTMODE
 70
     0
  9
$MIRRTEXT
 70
     1
  9
$LTSCALE
 40
1.0
  9
$ATTMODE
 70
     1
  9
$TEXTSIZE
 40
3.5
  9
$TRACEWID
 40
1.0
  9
$TEXTSTYLE
  7
Standard
  9
$CLAYER
  8
0
  9
$CELTYPE
  6
ByLayer
  9
$CECOLOR
 62
   256
  9
$CELTSCALE
 40
1.0
  9
$DISPSILH
 70
     0
  9
$DIMSCALE
 40
1.0
  9
$DIMASZ
 40
3.5
  9
$DIMEXO
 40
1.0
  9
$DIMDLI
 40
3.75
  9
$DIMRND
 40
0.0
  9
$DIMDLE
 40
0.0
  9
$DIMEXE
 40
1.0
  9
$DIMTP
 40
0.0
  9
$DIMTM
 40
0.0
  9
$DIMTXT
 40
3.5
  9
$DIMCEN
 40
2.5
  9
$DIMTSZ
 40
0.0
  9
$DIMTOL
 70
     0
  9
$DIMLIM
 70
     0
  9
$DIMTIH
 70
     1
  9
$DIMTOH
 70
     1
  9
$DIMSE1
 70
     0
  9
$DIMSE2
 70
     0
  9
$DIMTAD
 70
     1
  9
$DIMZIN
 70
     0
  9
$DIMBLK
  1

  9
$DIMASO
 70
     1
  9
$DIMSHO
 70
     1
  9
$DIMPOST
  1

  9
$DIMAPOST
  1

  9
$DIMALT
 70
     0
  9
$DIMALTD
 70
     3
  9
$DIMALTF
 40
0.0393700787
  9
$DIMLFAC
 40
1.0
  9
$DIMTOFL
 70
     1
  9
$DIMTVP
 40
0.0
  9
$DIMTIX
 70
     0
  9
$DIMSOXD
 70
     0
  9
$DIMSAH
 70
     0
  9
$DIMBLK1
  1

  9
$DIMBLK2
  1

  9
$DIMSTYLE
  2
ISO-25
  9
$DIMCLRD
 70
     0
  9
$DIMCLRE
 70
     0
  9
$DIMCLRT
 70
     0
  9
$DIMTFAC
 40
1.0
  9
$DIMGAP
 40
1.524
  9
$DIMJUST
 70
     0
  9
$DIMSD1
 70
     0
  9
$DIMSD2
 70
     0
  9
$DIMTOLJ
 70
     0
  9
$DIMTZIN
 70
     0
  9
$DIMALTZ
 70
     0
  9
$DIMALTTZ
 70
     0
  9
$DIMUPT
 70
     0
  9
$DIMDEC
 70
     2
  9
$DIMTDEC
 70
     2
  9
$DIMALTU
 70
     2
  9
$DIMALTTD
 70
     3
  9
$DIMTXSTY
  7
Standard
  9
$DIMAUNIT
 70
     0
  9
$DIMADEC
 70
     2
  9
$DIMALTRND
 40
0.0
  9
$DIMAZIN
 70
     0
  9
$DIMDSEP
 70
    44
  9
$DIMATFIT
 70
     3
  9
$DIMFRAC
 70
     0
  9
$DIMLDRBLK
  1

  9
$DIMLUNIT
 70
     2
  9
$DIMLWD
 70
    -2
  9
$DIMLWE
 70
    -2
  9
$DIMTMOVE
 70
     0
  9
$LUNITS
 70
     2
  9
$LUPREC
 70
     2
  9
$SKETCHINC
 40
1.0
  9
$FILLETRAD
 40
10.0
  9
$AUNITS
 70
     0
  9
$AUPREC
 70
     2
  9
$MENU
  1
.
  9
$ELEVATION
 40
0.0
  9
$PELEVATION
 40
0.0
  9
$THICKNESS
 40
0.0
  9
$LIMCHECK
 70
     0
  9
$CHAMFERA
 40
0.0
  9
$CHAMFERB
 40
0.0
  9
$CHAMFERC
 40
0.0
  9
$CHAMFERD
 40
0.0
  9
$SKPOLY
 70
     0
  9
$TDCREATE
 40
2459935.709664306
  9
$TDUCREATE
 40
2459935.584664306
  9
$TDUPDATE
 40
2459935.709664491
  9
$TDUUPDATE
 40
2459935.584664491
  9
$TDINDWG
 40
0.0000000116
  9
$TDUSRTIMER
 40
0.0000000116
  9
$USRTIMER
 70
     1
  9
$ANGBASE
 50
0.0
  9
$ANGDIR
 70
     0
  9
$PDMODE
 70
     0
  9
$PDSIZE
 40
-1.0
  9
$PLINEWID
 40
0.0
  9
$SPLFRAME
 70
     0
  9
$SPLINETYPE
 70
     6
  9
$SPLINESEGS
 70
     8
  9
$HANDSEED
  5
F5
  9
$SURFTAB1
 70
     6
  9
$SURFTAB2
 70
     6
  9
$SURFTYPE
 70
     6
  9
$SURFU
 70
     6
  9
$SURFV
 70
     6
  9
$UCSBASE
  2

  9
$UCSNAME
  2

  9
$UCSORG
 10
0.0
 20
0.0
 30
0.0
  9
$UCSXDIR
 10
1.0
 20
0.0
 30
0.0
  9
$UCSYDIR
 10
0.0
 20
1.0
 30
0.0
  9
$UCSORTHOREF
  2

  9
$UCSORTHOVIEW
 70
     0
  9
$UCSORGTOP
 10
0.0
 20
0.0
 30
0.0
  9
$UCSORGBOTTOM
 10
0.0
 20
0.0
 30
0.0
  9
$UCSORGLEFT
 10
0.0
 20
0.0
 30
0.0
  9
$UCSORGRIGHT
 10
0.0
 20
0.0
 30
0.0
  9
$UCSORGFRONT
 10
0.0
 20
0.0
 30
0.0
  9
$UCSORGBACK
 10
0.0
 20
0.0
 30
0.0
  9
$PUCSBASE
  2

  9
$PUCSNAME
  2

  9
$PUCSORG
 10
0.0
 20
0.0
 30
0.0
  9
$PUCSXDIR
 10
1.0
 20
0.0
 30
0.0
  9
$PUCSYDIR
 10
0.0
 20
1.0
 30
0.0
  9
$PUCSORTHOREF
  2

  9
$PUCSORTHOVIEW
 70
     0
  9
$PUCSORGTOP
 10
0.0
 20
0.0
 30
0.0
  9
$PUCSORGBOTTOM
 10
0.0
 20
0.0
 30
0.0
  9
$PUCSORGLEFT
 10
0.0
 20
0.0
 30
0.0
  9
$PUCSORGRIGHT
 10
0.0
 20
0.0
 30
0.0
  9
$PUCSORGFRONT
 10
0.0
 20
0.0
 30
0.0
  9
$PUCSORGBACK
 10
0.0
 20
0.0
 30
0.0
  9
$USERI1
 70
     0
  9
$USERI2
 70
     0
  9
$USERI3
 70
     0
  9
$USERI4
 70
     0
  9
$USERI5
 70
     0
  9
$USERR1
 40
0.0
  9
$USERR2
 40
0.0
  9
$USERR3
 40
0.0
  9
$USERR4
 40
0.0
  9
$USERR5
 40
0.0
  9
$WORLDVIEW
 70
     1
  9
$SHADEDGE
 70
     3
  9
$SHADEDIF
 70
    70
  9
$TILEMODE
 70
     1
  9
$MAXACTVP
 70
    64
  9
$PINSBASE
 10
0.0
 20
0.0
 30
0.0
  9
$PLIMCHECK
 70
     0
  9
$PEXTMIN
 10
1.0000000000E+20
 20
1.0000000000E+20
 30
1.0000000000E+20
  9
$PEXTMAX
 10
-1.0000000000E+20
 20
-1.0000000000E+20
 30
-1.0000000000E+20
  9
$PLIMMIN
 10
0.0
 20
0.0
  9
$PLIMMAX
 10
420.0
 20
297.0
  9
$UNITMODE
 70
     0
  9
$VISRETAIN
 70
     1
  9
$PLINEGEN
 70
     0
  9
$PSLTSCALE
 70
     1
  9
$TREEDEPTH
 70
  3020
  9
$CMLSTYLE
  2
Standard
  9
$CMLJUST
 70
     0
  9
$CMLSCALE
 40
20.0
  9
$PROXYGRAPHICS
 70
     1
  9
$MEASUREMENT
 70
     1
  9
$CELWEIGHT
370
    -1
  9
$ENDCAPS
280
     0
  9
$JOINSTYLE
280
     0
  9
$LWDISPLAY
290
     1
  9
$INSUNITS
 70
     4
  9
$HYPERLINKBASE
  1

  9
$STYLESHEET
  1

  9
$XEDIT
290
     1
  9
$CEPSNTYPE
380
     0
  9
$PSTYLEMODE
290
     1
  9
$FINGERPRINTGUID
  2
{3cf58a4b-a559-474f-bb98-e454090d8dc0}
  9
$VERSIONGUID
  2
{FAEB1C32-E019-11D5-929B-00C0DF256EC4}
  9
$EXTNAMES
290
     1
  9
$PSVPSCALE
 40
0.0
  9
$OLESTARTUP
290
     0
  0
ENDSEC
  0
SECTION
  2
CLASSES
  0
CLASS
  1
ACDBDICTIONARYWDFLT
  2
AcDbDictionaryWithDefault
  3
ObjectDBX Classes
 90
        0
280
     0
281
     0
  0
CLASS
  1
VISUALSTYLE
  2
AcDbVisualStyle
  3
ObjectDBX Classes
 90
     4095
280
     0
281
     0
  0
CLASS
  1
MATERIAL
  2
AcDbMaterial
  3
ObjectDBX Classes
 90
     1153
280
     0
281
     0
  0
CLASS
  1
SCALE
  2
AcDbScale
  3
ObjectDBX Classes
 90
     1153
280
     0
281
     0
  0
CLASS
  1
TABLESTYLE
  2
AcDbTableStyle
  3
ObjectDBX Classes
 90
     4095
280
     0
281
     0
  0
CLASS
  1
MLEADERSTYLE
  2
AcDbMLeaderStyle
  3
ACDB_MLEADERSTYLE_CLASS
 90
     4095
280
     0
281
     0
  0
CLASS
  1
SUN
  2
AcDbSun
  3
SCENEOE
 90
     1153
280
     0
281
     0
  0
CLASS
  1
ACDBPLACEHOLDER
  2
AcDbPlaceHolder
  3
ObjectDBX Classes
 90
        0
280
     0
281
     0
  0
CLASS
  1
LAYOUT
  2
AcDbLayout
  3
ObjectDBX Classes
 90
        0
280
     0
281
     0
  0
ENDSEC
  0
SECTION
  2
TABLES
  0
TABLE
  2
VPORT
  5
8
330
0
100
AcDbSymbolTable
 70
     1
  0
VPORT
  5
29
330
8
100
AcDbSymbolTableRecord
100
AcDbViewportTableRecord
  2
*Active
 70
     0
 10
0.0
 20
0.0
 11
1.0
 21
1.0
 12
139.7
 22
107.95
 13
0.0
 23
0.0
 14
10.0
 24
10.0
 15
10.0
 25
10.0
 16
0.0
 26
0.0
 36
1.0
 17
0.0
 27
0.0
 37
0.0
 40
215.9
 41
1.2941176471
 42
50.0
 43
0.0
 44
0.0
 50
0.0
 51
0.0
 71
     0
 72
  2000
 73
     1
 74
     3
 75
     0
 76
     0
 77
     0
 78
     0
281
     0
 65
     1
110
0.0
120
0.0
130
0.0
111
1.0
121
0.0
131
0.0
112
0.0
122
1.0
132
0.0
 79
     0
146
0.0
  0
ENDTAB
  0
TABLE
  2
LTYPE
  5
5
330
0
100
AcDbSymbolTable
 70
     6
  0
LTYPE
  5
14
330
5
100
AcDbSymbolTableRecord
100
AcDbLinetypeTableRecord
  2
ByBlock
 70
     0
  3

 72
    65
 73
     0
 40
0.0
  0
LTYPE
  5
15
330
5
100
AcDbSymbolTableRecord
100
AcDbLinetypeTableRecord
  2
ByLayer
 70
     0
  3

 72
    65
 73
     0
 40
0.0
  0
LTYPE
  5
16
330
5
100
AcDbSymbolTableRecord
100
AcDbLinetypeTableRecord
  2
Continuous
 70
     0
  3
Solid line
 72
    65
 73
     0
 40
0.0
  0
LTYPE
  5
6E
330
5
100
AcDbSymbolTableRecord
100
AcDbLinetypeTableRecord
  2
HIDDEN
 70
     0
  3
Hidden __ __ __ __ __ __ __ __ __ __ __ __ __ __
 72
    65
 73
     2
 40
1.905
 49
1.27
 74
     0
 49
-0.635
 74
     0
  0
LTYPE
  5
6F
330
5
100
AcDbSymbolTableRecord
100
AcDbLinetypeTableRecord
  2
PHANTOM
 70
     0
  3
Phantom ______  __  __  ______  __  __  ______
 72
    65
 73
     6
 40
12.7
 49
6.35
 74
     0
 49
-1.27
 74
     0
 49
1.27
 74
     0
 49
-1.27
 74
     0
 49
1.27
 74
     0
 49
-1.27
 74
     0
  0
LTYPE
  5
70
330
5
100
AcDbSymbolTableRecord
100
AcDbLinetypeTableRecord
  2
CENTER
 70
     0
  3
Center ____ _ ____ _ ____ _ ____ _ ____ _ ____
 72
    65
 73
     4
 40
10.16
 49
6.35
 74
     0
 49
-1.27
 74
     0
 49
1.27
 74
     0
 49
-1.27
 74
     0
  0
LTYPE
  5
71
330
5
100
AcDbSymbolTableRecord
100
AcDbLinetypeTableRecord
  2
CENTERX2
 70
     0
  3
Center (2x) ________  __  ________  __  _____
 72
    65
 73
     4
 40
20.32
 49
12.7
 74
     0
 49
-2.54
 74
     0
 49
2.54
 74
     0
 49
-2.54
 74
     0
  0
LTYPE
  5
72
330
5
100
AcDbSymbolTableRecord
100
AcDbLinetypeTableRecord
  2
DOT2
 70
     0
  3
Dot (.5x) ........................................
 72
    65
 73
     2
 40
0.635
 49
0.0
 74
     0
 49
-0.635
 74
     0
  0
ENDTAB
  0
TABLE
  2
LAYER
  5
2
330
0
100
AcDbSymbolTable
 70
    17
  0
LAYER
  5
10
330
2
100
AcDbSymbolTableRecord
100
AcDbLayerTableRecord
  2
0
 70
     0
 62
     7
  6
Continuous
370
    -3
390
F
  0
LAYER
  5
73
330
2
100
AcDbSymbolTableRecord
100
AcDbLayerTableRecord
  2
FORMAT
 70
     0
 62
     7
  6
Continuous
370
    -3
390
F
  0
LAYER
  5
74
330
2
100
AcDbSymbolTableRecord
100
AcDbLayerTableRecord
  2
YARDIMCI_GEOMETRI
 70
     0
 62
    -6
  6
Continuous
290
     0
370
    -3
390
F
  0
LAYER
  5
75
330
2
100
AcDbSymbolTableRecord
100
AcDbLayerTableRecord
  2
SAYFA_CERCEVESI
 70
     0
 62
     7
  6
Continuous
370
    25
390
F
  0
LAYER
  5
76
330
2
100
AcDbSymbolTableRecord
100
AcDbLayerTableRecord
  2
ANTET
 70
     0
 62
     7
  6
Continuous
370
    -3
390
F
  0
LAYER
  5
77
330
2
100
AcDbSymbolTableRecord
100
AcDbLayerTableRecord
  2
OLCU
 70
     0
 62
   150
  6
Continuous
370
    -3
390
F
  0
LAYER
  5
78
330
2
100
AcDbSymbolTableRecord
100
AcDbLayerTableRecord
  2
METIN
 70
     0
 62
    96
  6
Continuous
370
    -3
390
F
  0
LAYER
  5
79
330
2
100
AcDbSymbolTableRecord
100
AcDbLayerTableRecord
  2
BALON
 70
     0
 62
     5
  6
Continuous
370
    -3
390
F
  0
LAYER
  5
7A
330
2
100
AcDbSymbolTableRecord
100
AcDbLayerTableRecord
  2
VURGU
 70
     0
 62
     7
  6
Continuous
370
    -3
390
F
  0
LAYER
  5
7B
330
2
100
AcDbSymbolTableRecord
100
AcDbLayerTableRecord
  2
SILIK
 70
     0
 62
     7
  6
Continuous
370
    -3
390
F
  0
LAYER
  5
7C
330
2
100
AcDbSymbolTableRecord
100
AcDbLayerTableRecord
  2
MODEL
 70
     0
 62
     7
  6
Continuous
370
    -3
390
F
  0
LAYER
  5
7D
330
2
100
AcDbSymbolTableRecord
100
AcDbLayerTableRecord
  2
DETAYLANDıRMA
 70
     0
 62
   190
  6
Continuous
370
    -3
390
F
  0
LAYER
  5
7E
330
2
100
AcDbSymbolTableRecord
100
AcDbLayerTableRecord
  2
TOLERANS
 70
     0
 62
   230
  6
Continuous
370
    -3
390
F
  0
LAYER
  5
7F
330
2
100
AcDbSymbolTableRecord
100
AcDbLayerTableRecord
  2
MERKEZ_CIZGILERI
 70
     0
 62
    30
  6
Continuous
370
    -3
390
F
  0
LAYER
  5
80
330
2
100
AcDbSymbolTableRecord
100
AcDbLayerTableRecord
  2
KESIT-DETAY_CIZGILERI
 70
     0
 62
     7
  6
Continuous
370
    -3
390
F
  0
LAYER
  5
81
330
2
100
AcDbSymbolTableRecord
100
AcDbLayerTableRecord
  2
\U+041E\U+0421\U+0415\U+0412\U+042B\U+0415
 70
     0
 62
     7
  6
Continuous
370
    -3
390
F
  0
LAYER
  5
82
330
2
100
AcDbSymbolTableRecord
100
AcDbLayerTableRecord
  2
\U+0412\U+041E\U+0414\U+042F\U+041D\U+042B\U+0415_\U+0417\U+041D\U+0410\U+041A\U+0418
 70
     0
 62
    11
  6
Continuous
370
    -3
390
F
  0
ENDTAB
  0
TABLE
  2
STYLE
  5
3
330
0
100
AcDbSymbolTable
 70
     1
  0
STYLE
  5
11
330
3
100
AcDbSymbolTableRecord
100
AcDbTextStyleTableRecord
  2
Standard
 70
     0
 40
0.0
 41
1.0
 50
0.0
 71
     0
 42
3.5
  3
txt
  4

  0
ENDTAB
  0
TABLE
  2
VIEW
  5
6
330
0
100
AcDbSymbolTable
 70
     0
  0
ENDTAB
  0
TABLE
  2
UCS
  5
7
330
0
100
AcDbSymbolTable
 70
     0
  0
ENDTAB
  0
TABLE
  2
APPID
  5
9
330
0
100
AcDbSymbolTable
 70
     1
  0
APPID
  5
12
330
9
100
AcDbSymbolTableRecord
100
AcDbRegAppTableRecord
  2
ACAD
 70
     0
  0
ENDTAB
  0
TABLE
  2
DIMSTYLE
  5
A
330
0
100
AcDbSymbolTable
 70
     1
100
AcDbDimStyleTable
  0
DIMSTYLE
105
27
330
A
100
AcDbSymbolTableRecord
100
AcDbDimStyleTableRecord
  2
ISO-25
 70
     0
 41
2.5
 42
0.625
 43
3.75
 44
1.25
 73
     0
 74
     0
 77
     1
 78
     8
140
2.5
141
2.5
143
0.0393700787
147
0.625
171
     3
172
     1
178
     0
271
     2
272
     2
274
     3
278
    44
283
     0
284
     8
340
11
  0
ENDTAB
  0
TABLE
  2
BLOCK_RECORD
  5
1
330
0
100
AcDbSymbolTable
 70
     2
  0
BLOCK_RECORD
  5
1F
330
1
100
AcDbSymbolTableRecord
100
AcDbBlockTableRecord
  2
*Model_Space
340
22
  0
BLOCK_RECORD
  5
1B
330
1
100
AcDbSymbolTableRecord
100
AcDbBlockTableRecord
  2
*Paper_Space
340
1E
  0
BLOCK_RECORD
  5
23
330
1
100
AcDbSymbolTableRecord
100
AcDbBlockTableRecord
  2
*Paper_Space0
340
26
  0
BLOCK_RECORD
  5
88
330
1
100
AcDbSymbolTableRecord
100
AcDbBlockTableRecord
  2
SW_CENTERMARKSYMBOL_0
340
0
102
{BLKREFS
331
93
102
}
  0
ENDTAB
  0
ENDSEC
  0
SECTION
  2
BLOCKS
  0
BLOCK
  5
20
330
1F
100
AcDbEntity
  8
0
100
AcDbBlockBegin
  2
*Model_Space
 70
     0
 10
0.0
 20
0.0
 30
0.0
  3
*Model_Space
  1

  0
ENDBLK
  5
21
330
1F
100
AcDbEntity
  8
0
100
AcDbBlockEnd
  0
BLOCK
  5
1C
330
1B
100
AcDbEntity
 67
     1
  8
0
100
AcDbBlockBegin
  2
*Paper_Space
 70
     0
 10
0.0
 20
0.0
 30
0.0
  3
*Paper_Space
  1

  0
ENDBLK
  5
1D
330
1B
100
AcDbEntity
 67
     1
  8
0
100
AcDbBlockEnd
  0
BLOCK
  5
24
330
23
100
AcDbEntity
  8
0
100
AcDbBlockBegin
  2
*Paper_Space0
 70
     0
 10
0.0
 20
0.0
 30
0.0
  3
*Paper_Space0
  1

  0
ENDBLK
  5
25
330
23
100
AcDbEntity
  8
0
100
AcDbBlockEnd
  0
BLOCK
  5
89
330
88
100
AcDbEntity
  8
0
100
AcDbBlockBegin
  2
SW_CENTERMARKSYMBOL_0
 70
     0
 10
0.0
 20
0.0
 30
0.0
  3
SW_CENTERMARKSYMBOL_0
  1

  0
LINE
  5
8B
330
88
100
AcDbEntity
  8
FORMAT
 62
     0
100
AcDbLine
 10
0.0
 20
0.0
 30
0.0
 11
0.0
 21
2.5
 31
0.0
  0
LINE
  5
8C
330
88
100
AcDbEntity
  8
FORMAT
 62
     0
100
AcDbLine
 10
0.0
 20
0.0
 30
0.0
 11
-2.5
 21
0.0
 31
0.0
  0
LINE
  5
8D
330
88
100
AcDbEntity
  8
FORMAT
 62
     0
100
AcDbLine
 10
0.0
 20
0.0
 30
0.0
 11
0.0
 21
-2.5
 31
0.0
  0
LINE
  5
8E
330
88
100
AcDbEntity
  8
FORMAT
 62
     0
100
AcDbLine
 10
0.0
 20
0.0
 30
0.0
 11
2.5
 21
0.0
 31
0.0
  0
LINE
  5
8F
330
88
100
AcDbEntity
  8
FORMAT
 62
     0
100
AcDbLine
 10
0.0
 20
5.0
 30
0.0
 11
0.0
 21
59.65
 31
0.0
  0
LINE
  5
90
330
88
100
AcDbEntity
  8
FORMAT
 62
     0
100
AcDbLine
 10
-5.0
 20
0.0
 30
0.0
 11
-59.65
 21
0.0
 31
0.0
  0
LINE
  5
91
330
88
100
AcDbEntity
  8
FORMAT
 62
     0
100
AcDbLine
 10
0.0
 20
-5.0
 30
0.0
 11
0.0
 21
-59.65
 31
0.0
  0
LINE
  5
92
330
88
100
AcDbEntity
  8
FORMAT
 62
     0
100
AcDbLine
 10
5.0
 20
0.0
 30
0.0
 11
59.65
 21
0.0
 31
0.0
  0
ENDBLK
  5
8A
330
88
100
AcDbEntity
  8
0
100
AcDbBlockEnd
  0
ENDSEC
  0
SECTION
  2
ENTITIES
  0
CIRCLE
  5
83
330
1F
100
AcDbEntity
  8
0
  6
Continuous
 62
     7
370
    25
100
AcDbCircle
 10
137.9424909615
 20
108.5958316346
 30
0.0
 40
44.44999999999996
  0
CIRCLE
  5
84
330
1F
100
AcDbEntity
  8
0
  6
Continuous
 62
     7
370
    25
100
AcDbCircle
 10
137.9424909615
 20
108.5958316346
 30
0.0
 40
38.94999999999996
  0
CIRCLE
  5
85
330
1F
100
AcDbEntity
  8
0
  6
Continuous
 62
     7
370
    25
100
AcDbCircle
 10
137.9424909615
 20
108.5958316346
 30
0.0
 40
46.95000000000002
  0
CIRCLE
  5
86
330
1F
100
AcDbEntity
  8
0
  6
Continuous
 62
     7
370
    25
100
AcDbCircle
 10
137.9424909615
 20
108.5958316346
 30
0.0
 40
57.15000000000001
  0
CIRCLE
  5
87
330
1F
100
AcDbEntity
  8
0
  6
Continuous
 62
     7
370
    25
100
AcDbCircle
 10
137.9424909615
 20
108.5958316346
 30
0.0
 40
36.79999999999998
  0
INSERT
  5
93
330
1F
100
AcDbEntity
  8
FORMAT
 62
     7
100
AcDbBlockReference
  2
SW_CENTERMARKSYMBOL_0
 10
137.9424909615
 20
108.5958316346
 30
0.0
  0
LINE
  5
94
330
1F
100
AcDbEntity
  8
0
  6
Continuous
 62
     7
370
    25
100
AcDbLine
 10
433.3247772254
 20
165.7458316346
 30
0.0
 11
396.3247772254
 21
153.5958316346
 31
0.0
  0
LINE
  5
95
330
1F
100
AcDbEntity
  8
0
  6
Continuous
 62
     7
370
    25
100
AcDbLine
 10
396.3247772254
 20
63.5958316346
 30
0.0
 11
433.3247772254
 21
51.4458316346
 31
0.0
  0
LINE
  5
96
330
1F
100
AcDbEntity
  8
0
  6
Continuous
 62
     7
370
    25
100
AcDbLine
 10
521.3247772254
 20
165.7458316346
 30
0.0
 11
433.3247772254
 21
165.7458316346
 31
0.0
  0
LINE
  5
97
330
1F
100
AcDbEntity
  8
0
  6
Continuous
 62
     7
370
    25
100
AcDbLine
 10
433.3247772254
 20
51.4458316346
 30
0.0
 11
521.3247772254
 21
51.4458316346
 31
0.0
  0
LINE
  5
98
330
1F
100
AcDbEntity
  8
0
  6
Continuous
 62
     7
370
    25
100
AcDbLine
 10
745.3247772254
 20
155.5458316346
 30
0.0
 11
521.3247772254
 21
155.5458316346
 31
0.0
  0
LINE
  5
99
330
1F
100
AcDbEntity
  8
0
  6
Continuous
 62
     7
370
    25
100
AcDbLine
 10
521.3247772254
 20
61.6458316346
 30
0.0
 11
745.3247772254
 21
61.6458316346
 31
0.0
  0
LINE
  5
9A
330
1F
100
AcDbEntity
  8
0
  6
Continuous
 62
     7
370
    25
100
AcDbLine
 10
396.3247772254
 20
153.5958316346
 30
0.0
 11
313.3247772254
 21
153.5958316346
 31
0.0
  0
LINE
  5
9B
330
1F
100
AcDbEntity
  8
0
  6
Continuous
 62
     7
370
    25
100
AcDbLine
 10
313.3247772254
 20
63.5958316346
 30
0.0
 11
396.3247772254
 21
63.5958316346
 31
0.0
  0
LINE
  5
9C
330
1F
100
AcDbEntity
  8
0
  6
Continuous
 62
     7
370
    25
100
AcDbLine
 10
795.3247772254
 20
153.0458316346
 30
0.0
 11
745.3247772254
 21
153.0458316346
 31
0.0
  0
LINE
  5
9D
330
1F
100
AcDbEntity
  8
0
  6
Continuous
 62
     7
370
    25
100
AcDbLine
 10
745.3247772254
 20
64.1458316346
 30
0.0
 11
795.3247772254
 21
64.1458316346
 31
0.0
  0
LINE
  5
9E
330
1F
100
AcDbEntity
  8
0
  6
Continuous
 62
     7
370
    25
100
AcDbLine
 10
396.3247772254
 20
153.5958316346
 30
0.0
 11
396.3247772254
 21
63.5958316346
 31
0.0
  0
LINE
  5
9F
330
1F
100
AcDbEntity
  8
0
  6
Continuous
 62
     7
370
    25
100
AcDbLine
 10
433.3247772254
 20
165.7458316346
 30
0.0
 11
433.3247772254
 21
51.4458316346
 31
0.0
  0
LINE
  5
A0
330
1F
100
AcDbEntity
  8
0
  6
Continuous
 62
     7
370
    25
100
AcDbLine
 10
521.3247772254
 20
165.7458316346
 30
0.0
 11
521.3247772254
 21
51.4458316346
 31
0.0
  0
LINE
  5
A1
330
1F
100
AcDbEntity
  8
0
  6
Continuous
 62
     7
370
    25
100
AcDbLine
 10
745.3247772254
 20
155.5458316346
 30
0.0
 11
745.3247772254
 21
61.6458316346
 31
0.0
  0
LINE
  5
A2
330
1F
100
AcDbEntity
  8
0
  6
Continuous
 62
     7
370
    25
100
AcDbLine
 10
313.3247772254
 20
153.5958316346
 30
0.0
 11
313.3247772254
 21
63.5958316346
 31
0.0
  0
LINE
  5
A3
330
1F
100
AcDbEntity
  8
0
  6
Continuous
 62
     7
370
    25
100
AcDbLine
 10
795.3247772254
 20
153.0458316346
 30
0.0
 11
795.3247772254
 21
64.1458316346
 31
0.0
  0
LINE
  5
A4
330
1F
100
AcDbEntity
  8
0
  6
Continuous
 62
     7
370
    25
100
AcDbLine
 10
-162.3285620436
 20
51.4458316346
 30
0.0
 11
-125.3285620436
 21
63.5958316346
 31
0.0
  0
LINE
  5
A5
330
1F
100
AcDbEntity
  8
0
  6
Continuous
 62
     7
370
    25
100
AcDbLine
 10
-125.3285620436
 20
153.5958316346
 30
0.0
 11
-162.3285620436
 21
165.7458316346
 31
0.0
  0
LINE
  5
A6
330
1F
100
AcDbEntity
  8
0
  6
Continuous
 62
     7
370
    25
100
AcDbLine
 10
-250.3285620436
 20
51.4458316346
 30
0.0
 11
-162.3285620436
 21
51.4458316346
 31
0.0
  0
LINE
  5
A7
330
1F
100
AcDbEntity
  8
0
  6
Continuous
 62
     7
370
    25
100
AcDbLine
 10
-162.3285620436
 20
165.7458316346
 30
0.0
 11
-250.3285620436
 21
165.7458316346
 31
0.0
  0
LINE
  5
A8
330
1F
100
AcDbEntity
  8
0
  6
Continuous
 62
     7
370
    25
100
AcDbLine
 10
-474.3285620436
 20
61.6458316346
 30
0.0
 11
-250.3285620436
 21
61.6458316346
 31
0.0
  0
LINE
  5
A9
330
1F
100
AcDbEntity
  8
0
  6
Continuous
 62
     7
370
    25
100
AcDbLine
 10
-250.3285620436
 20
155.5458316346
 30
0.0
 11
-474.3285620436
 21
155.5458316346
 31
0.0
  0
LINE
  5
AA
330
1F
100
AcDbEntity
  8
0
  6
Continuous
 62
     7
370
    25
100
AcDbLine
 10
-125.3285620436
 20
63.5958316346
 30
0.0
 11
-42.3285620436
 21
63.5958316346
 31
0.0
  0
LINE
  5
AB
330
1F
100
AcDbEntity
  8
0
  6
Continuous
 62
     7
370
    25
100
AcDbLine
 10
-42.3285620436
 20
153.5958316346
 30
0.0
 11
-125.3285620436
 21
153.5958316346
 31
0.0
  0
LINE
  5
AC
330
1F
100
AcDbEntity
  8
0
  6
Continuous
 62
     7
370
    25
100
AcDbLine
 10
-524.3285620436
 20
64.1458316346
 30
0.0
 11
-474.3285620436
 21
64.1458316346
 31
0.0
  0
LINE
  5
AD
330
1F
100
AcDbEntity
  8
0
  6
Continuous
 62
     7
370
    25
100
AcDbLine
 10
-474.3285620436
 20
153.0458316346
 30
0.0
 11
-524.3285620436
 21
153.0458316346
 31
0.0
  0
LINE
  5
AE
330
1F
100
AcDbEntity
  8
0
  6
Continuous
 62
     7
370
    25
100
AcDbLine
 10
-125.3285620436
 20
108.5958316346
 30
0.0
 11
-125.3285620436
 21
153.5958316346
 31
0.0
  0
LINE
  5
AF
330
1F
100
AcDbEntity
  8
0
  6
Continuous
 62
     7
370
    25
100
AcDbLine
 10
-125.3285620436
 20
63.5958316346
 30
0.0
 11
-125.3285620436
 21
108.5958316346
 31
0.0
  0
LINE
  5
B0
330
1F
100
AcDbEntity
  8
0
  6
Continuous
 62
     7
370
    25
100
AcDbLine
 10
-162.3285620436
 20
108.5958316346
 30
0.0
 11
-162.3285620436
 21
165.7458316346
 31
0.0
  0
LINE
  5
B1
330
1F
100
AcDbEntity
  8
0
  6
Continuous
 62
     7
370
    25
100
AcDbLine
 10
-162.3285620436
 20
51.4458316346
 30
0.0
 11
-162.3285620436
 21
108.5958316346
 31
0.0
  0
LINE
  5
B2
330
1F
100
AcDbEntity
  8
0
  6
Continuous
 62
     7
370
    25
100
AcDbLine
 10
-250.3285620436
 20
108.5958316346
 30
0.0
 11
-250.3285620436
 21
165.7458316346
 31
0.0
  0
LINE
  5
B3
330
1F
100
AcDbEntity
  8
0
  6
Continuous
 62
     7
370
    25
100
AcDbLine
 10
-250.3285620436
 20
51.4458316346
 30
0.0
 11
-250.3285620436
 21
108.5958316346
 31
0.0
  0
LINE
  5
B4
330
1F
100
AcDbEntity
  8
0
  6
Continuous
 62
     7
370
    25
100
AcDbLine
 10
-474.3285620436
 20
108.5958316346
 30
0.0
 11
-474.3285620436
 21
155.5458316346
 31
0.0
  0
LINE
  5
B5
330
1F
100
AcDbEntity
  8
0
  6
Continuous
 62
     7
370
    25
100
AcDbLine
 10
-474.3285620436
 20
61.6458316346
 30
0.0
 11
-474.3285620436
 21
108.5958316346
 31
0.0
  0
LINE
  5
B6
330
1F
100
AcDbEntity
  8
0
  6
Continuous
 62
     7
370
    25
100
AcDbLine
 10
-42.3285620436
 20
108.5958316346
 30
0.0
 11
-42.3285620436
 21
153.5958316346
 31
0.0
  0
LINE
  5
B7
330
1F
100
AcDbEntity
  8
0
  6
Continuous
 62
     7
370
    25
100
AcDbLine
 10
-42.3285620436
 20
63.5958316346
 30
0.0
 11
-42.3285620436
 21
108.5958316346
 31
0.0
  0
LINE
  5
B8
330
1F
100
AcDbEntity
  8
0
  6
Continuous
 62
     7
370
    25
100
AcDbLine
 10
-524.3285620436
 20
108.5958316346
 30
0.0
 11
-524.3285620436
 21
153.0458316346
 31
0.0
  0
LINE
  5
B9
330
1F
100
AcDbEntity
  8
0
  6
Continuous
 62
     7
370
    25
100
AcDbLine
 10
-524.3285620436
 20
64.1458316346
 30
0.0
 11
-524.3285620436
 21
108.5958316346
 31
0.0
  0
LINE
  5
BA
330
1F
100
AcDbEntity
  8
0
  6
Continuous
 62
     7
370
    25
100
AcDbLine
 10
80.7924909615
 20
369.2546919059
 30
0.0
 11
92.9424909615
 21
332.2546919059
 31
0.0
  0
LINE
  5
BB
330
1F
100
AcDbEntity
  8
0
  6
Continuous
 62
     7
370
    25
100
AcDbLine
 10
182.9424909615
 20
332.2546919059
 30
0.0
 11
195.0924909615
 21
369.2546919059
 31
0.0
  0
LINE
  5
BC
330
1F
100
AcDbEntity
  8
0
  6
Continuous
 62
     7
370
    25
100
AcDbLine
 10
80.7924909615
 20
457.2546919059
 30
0.0
 11
80.7924909615
 21
369.2546919059
 31
0.0
  0
LINE
  5
BD
330
1F
100
AcDbEntity
  8
0
  6
Continuous
 62
     7
370
    25
100
AcDbLine
 10
195.0924909615
 20
369.2546919059
 30
0.0
 11
195.0924909615
 21
457.2546919059
 31
0.0
  0
LINE
  5
BE
330
1F
100
AcDbEntity
  8
0
  6
Continuous
 62
     7
370
    25
100
AcDbLine
 10
90.9924909615
 20
681.2546919059
 30
0.0
 11
90.9924909615
 21
457.2546919059
 31
0.0
  0
LINE
  5
BF
330
1F
100
AcDbEntity
  8
0
  6
Continuous
 62
     7
370
    25
100
AcDbLine
 10
184.8924909615
 20
457.2546919059
 30
0.0
 11
184.8924909615
 21
681.2546919059
 31
0.0
  0
LINE
  5
C0
330
1F
100
AcDbEntity
  8
0
  6
Continuous
 62
     7
370
    25
100
AcDbLine
 10
92.9424909615
 20
332.2546919059
 30
0.0
 11
92.9424909615
 21
249.2546919059
 31
0.0
  0
LINE
  5
C1
330
1F
100
AcDbEntity
  8
0
  6
Continuous
 62
     7
370
    25
100
AcDbLine
 10
182.9424909615
 20
249.2546919059
 30
0.0
 11
182.9424909615
 21
332.2546919059
 31
0.0
  0
LINE
  5
C2
330
1F
100
AcDbEntity
  8
0
  6
Continuous
 62
     7
370
    25
100
AcDbLine
 10
93.4924909615
 20
731.2546919059
 30
0.0
 11
93.4924909615
 21
681.2546919059
 31
0.0
  0
LINE
  5
C3
330
1F
100
AcDbEntity
  8
0
  6
Continuous
 62
     7
370
    25
100
AcDbLine
 10
182.3924909615
 20
681.2546919059
 30
0.0
 11
182.3924909615
 21
731.2546919059
 31
0.0
  0
LINE
  5
C4
330
1F
100
AcDbEntity
  8
0
  6
Continuous
 62
     7
370
    25
100
AcDbLine
 10
92.9424909615
 20
332.2546919059
 30
0.0
 11
182.9424909615
 21
332.2546919059
 31
0.0
  0
LINE
  5
C5
330
1F
100
AcDbEntity
  8
0
  6
Continuous
 62
     7
370
    25
100
AcDbLine
 10
80.7924909615
 20
369.2546919059
 30
0.0
 11
195.0924909615
 21
369.2546919059
 31
0.0
  0
LINE
  5
C6
330
1F
100
AcDbEntity
  8
0
  6
Continuous
 62
     7
370
    25
100
AcDbLine
 10
80.7924909615
 20
457.2546919059
 30
0.0
 11
195.0924909615
 21
457.2546919059
 31
0.0
  0
LINE
  5
C7
330
1F
100
AcDbEntity
  8
0
  6
Continuous
 62
     7
370
    25
100
AcDbLine
 10
90.9924909615
 20
681.2546919059
 30
0.0
 11
184.8924909615
 21
681.2546919059
 31
0.0
  0
LINE
  5
C8
330
1F
100
AcDbEntity
  8
0
  6
Continuous
 62
     7
370
    25
100
AcDbLine
 10
92.9424909615
 20
249.2546919059
 30
0.0
 11
182.9424909615
 21
249.2546919059
 31
0.0
  0
LINE
  5
C9
330
1F
100
AcDbEntity
  8
0
  6
Continuous
 62
     7
370
    25
100
AcDbLine
 10
93.4924909615
 20
731.2546919059
 30
0.0
 11
182.3924909615
 21
731.2546919059
 31
0.0
  0
LINE
  5
CA
330
1F
100
AcDbEntity
  8
0
  6
Continuous
 62
     7
370
    25
100
AcDbLine
 10
195.0924909615
 20
-143.2671920351
 30
0.0
 11
182.9424909615
 21
-106.2671920351
 31
0.0
  0
LINE
  5
CB
330
1F
100
AcDbEntity
  8
0
  6
Continuous
 62
     7
370
    25
100
AcDbLine
 10
92.9424909615
 20
-106.2671920351
 30
0.0
 11
80.7924909615
 21
-143.2671920351
 31
0.0
  0
LINE
  5
CC
330
1F
100
AcDbEntity
  8
0
  6
Continuous
 62
     7
370
    25
100
AcDbLine
 10
195.0924909615
 20
-231.2671920351
 30
0.0
 11
195.0924909615
 21
-143.2671920351
 31
0.0
  0
LINE
  5
CD
330
1F
100
AcDbEntity
  8
0
  6
Continuous
 62
     7
370
    25
100
AcDbLine
 10
80.7924909615
 20
-143.2671920351
 30
0.0
 11
80.7924909615
 21
-231.2671920351
 31
0.0
  0
LINE
  5
CE
330
1F
100
AcDbEntity
  8
0
  6
Continuous
 62
     7
370
    25
100
AcDbLine
 10
184.8924909615
 20
-455.2671920351
 30
0.0
 11
184.8924909615
 21
-231.2671920351
 31
0.0
  0
LINE
  5
CF
330
1F
100
AcDbEntity
  8
0
  6
Continuous
 62
     7
370
    25
100
AcDbLine
 10
90.9924909615
 20
-231.2671920351
 30
0.0
 11
90.9924909615
 21
-455.2671920351
 31
0.0
  0
LINE
  5
D0
330
1F
100
AcDbEntity
  8
0
  6
Continuous
 62
     7
370
    25
100
AcDbLine
 10
182.9424909615
 20
-106.2671920351
 30
0.0
 11
182.9424909615
 21
-23.2671920351
 31
0.0
  0
LINE
  5
D1
330
1F
100
AcDbEntity
  8
0
  6
Continuous
 62
     7
370
    25
100
AcDbLine
 10
92.9424909615
 20
-23.2671920351
 30
0.0
 11
92.9424909615
 21
-106.2671920351
 31
0.0
  0
LINE
  5
D2
330
1F
100
AcDbEntity
  8
0
  6
Continuous
 62
     7
370
    25
100
AcDbLine
 10
182.3924909615
 20
-505.2671920351
 30
0.0
 11
182.3924909615
 21
-455.2671920351
 31
0.0
  0
LINE
  5
D3
330
1F
100
AcDbEntity
  8
0
  6
Continuous
 62
     7
370
    25
100
AcDbLine
 10
93.4924909615
 20
-455.2671920351
 30
0.0
 11
93.4924909615
 21
-505.2671920351
 31
0.0
  0
LINE
  5
D4
330
1F
100
AcDbEntity
  8
0
  6
Continuous
 62
     7
370
    25
100
AcDbLine
 10
182.9424909615
 20
-106.2671920351
 30
0.0
 11
92.9424909615
 21
-106.2671920351
 31
0.0
  0
LINE
  5
D5
330
1F
100
AcDbEntity
  8
0
  6
Continuous
 62
     7
370
    25
100
AcDbLine
 10
195.0924909615
 20
-143.2671920351
 30
0.0
 11
80.7924909615
 21
-143.2671920351
 31
0.0
  0
LINE
  5
D6
330
1F
100
AcDbEntity
  8
0
  6
Continuous
 62
     7
370
    25
100
AcDbLine
 10
195.0924909615
 20
-231.2671920351
 30
0.0
 11
80.7924909615
 21
-231.2671920351
 31
0.0
  0
LINE
  5
D7
330
1F
100
AcDbEntity
  8
0
  6
Continuous
 62
     7
370
    25
100
AcDbLine
 10
184.8924909615
 20
-455.2671920351
 30
0.0
 11
90.9924909615
 21
-455.2671920351
 31
0.0
  0
LINE
  5
D8
330
1F
100
AcDbEntity
  8
0
  6
Continuous
 62
     7
370
    25
100
AcDbLine
 10
182.9424909615
 20
-23.2671920351
 30
0.0
 11
92.9424909615
 21
-23.2671920351
 31
0.0
  0
LINE
  5
D9
330
1F
100
AcDbEntity
  8
0
  6
Continuous
 62
     7
370
    25
100
AcDbLine
 10
182.3924909615
 20
-505.2671920351
 30
0.0
 11
93.4924909615
 21
-505.2671920351
 31
0.0
  0
LINE
  5
DA
330
1F
100
AcDbEntity
  8
0
  6
Continuous
 62
     7
370
    25
100
AcDbLine
 10
291.4767257759
 20
-92.8043638621
 30
0.0
 11
326.8320648352
 21
-113.2145666577
 31
0.0
  0
LINE
  5
DB
330
1F
100
AcDbEntity
  8
0
  6
Continuous
 62
     7
370
    25
100
AcDbLine
 10
371.2784525009
 20
-36.2228227921
 30
0.0
 11
335.9231134416
 21
-15.8126199965
 31
0.0
  0
LINE
  5
DC
330
1F
100
AcDbEntity
  8
0
  6
Continuous
 62
     7
370
    25
100
AcDbLine
 10
325.5821664194
 20
-115.3796888137
 30
0.0
 11
483.9740854052
 21
-206.8173973378
 31
0.0
  0
LINE
  5
DD
330
1F
100
AcDbEntity
  8
0
  6
Continuous
 62
     7
370
    25
100
AcDbLine
 10
530.9202699025
 20
-125.4954091603
 30
0.0
 11
372.5283509167
 21
-34.0577006361
 31
0.0
  0
LINE
  5
DE
330
1F
100
AcDbEntity
  8
0
  6
Continuous
 62
     7
370
    25
100
AcDbLine
 10
478.8744998688
 20
-215.6510957341
 30
0.0
 11
541.0998966132
 21
-251.5730526543
 31
0.0
  0
LINE
  5
DF
330
1F
100
AcDbEntity
  8
0
  6
Continuous
 62
     7
370
    25
100
AcDbLine
 10
598.2452521833
 20
-152.5836676842
 30
0.0
 11
536.0198554389
 21
-116.661710764
 31
0.0
  0
LINE
  5
E0
330
1F
100
AcDbEntity
  8
0
  6
Continuous
 62
     7
370
    25
100
AcDbLine
 10
548.5171150198
 20
-254.051030107
 30
0.0
 11
579.1776832719
 21
-258.1052723937
 31
0.0
  0
LINE
  5
E1
330
1F
100
AcDbEntity
  8
0
  6
Continuous
 62
     7
370
    25
100
AcDbLine
 10
622.944001595
 20
-182.2915708255
 30
0.0
 11
604.1003392901
 21
-157.7676291154
 31
0.0
  0
LINE
  5
E2
330
1F
100
AcDbEntity
  8
0
  6
Continuous
 62
     7
370
    25
100
AcDbLine
 10
575.9862171838
 20
-257.6832653172
 30
0.0
 11
632.0272166563
 21
-290.0350456857
 31
0.0
  0
LINE
  5
E3
330
1F
100
AcDbEntity
  8
0
  6
Continuous
 62
     7
370
    25
100
AcDbLine
 10
677.023559625
 20
-212.0906480715
 30
0.0
 11
620.9825601524
 21
-179.738867703
 31
0.0
  0
LWPOLYLINE
  5
E4
330
1F
100
AcDbEntity
  8
0
  6
Continuous
 62
     7
370
    25
100
AcDbPolyline
 90
       72
 70
   128
 43
0.0
 10
345.1308160325
 20
-36.1638216441
 10
345.0078213424
 20
-33.0270479403
 10
344.6397998725
 20
-30.0568303901
 10
344.0296318896
 20
-27.2764149732
 10
343.1820927857
 20
-24.7075622098
 10
342.1038157032
 20
-22.370376856
 10
340.8032396223
 20
-20.2831505558
 10
339.2905433143
 20
-18.4622186852
 10
337.5775656787
 20
-16.9218325049
 10
335.6777130882
 20
-15.6740476253
 10
333.605854465
 20
-14.7286296549
 10
331.3782049122
 20
-14.0929777712
 10
329.0121988077
 20
-13.7720668119
 10
326.5263533574
 20
-13.7684083406
 10
323.9401236722
 20
-14.0820309895
 10
321.2737505061
 20
-14.7104802364
 10
318.5481018442
 20
-15.6488376137
 10
315.784509583
 20
-16.8897592028
 10
313.0046025787
 20
-18.4235331096
 10
310.230137373
 20
-20.2381554739
 10
307.4828279178
 20
-22.3194244151
 10
304.7841756345
 20
-24.6510511821
 10
302.1553011363
 20
-27.2147876339
 10
299.6167789303
 20
-29.9905690568
 10
297.1884763948
 20
-32.9566711977
 10
294.8893982895
 20
-36.0898802857
 10
292.7375380177
 20
-39.3656747115
 10
290.7497368037
 20
-42.7584169422
 10
288.9415518872
 20
-46.2415541699
 10
287.3271347668
 20
-49.7878261231
 10
285.9191204453
 20
-53.3694784156
 10
284.7285285438
 20
-56.958479762
 10
283.7646770583
 20
-60.5267413606
 10
283.0351094334
 20
-64.0463367264
 10
282.5455355251
 20
-67.4897202536
 10
282.2997869129
 20
-70.8299427974
 10
282.2997869129
 20
-74.0408625876
 10
282.5455355251
 20
-77.0973498232
 10
283.0351094334
 20
-79.9754833475
 10
283.7646770583
 20
-82.6527378634
 10
284.7285285438
 20
-85.1081602243
 10
285.9191204453
 20
-87.322533421
 10
287.3271347668
 20
-89.278526981
 10
288.9415518872
 20
-90.9608326026
 10
290.7497368037
 20
-92.3562839633
 10
292.7375380177
 20
-93.4539597643
 10
294.8893982895
 20
-94.2452692041
 10
297.1884763948
 20
-94.7240192134
 10
299.6167789303
 20
-94.8864629243
 10
302.1553011363
 20
-94.7313289945
 10
304.7841756345
 20
-94.2598315574
 10
307.4828279178
 20
-93.4756607197
 10
310.230137373
 20
-92.3849536813
 10
313.0046025787
 20
-90.9962467038
 10
315.784509583
 20
-89.3204083021
 10
318.5481018442
 20
-87.3705541839
 10
321.2737505061
 20
-85.1619446013
 10
323.9401236722
 20
-82.7118649189
 10
326.5263533574
 20
-80.0394903321
 10
329.0121988077
 20
-77.1657357955
 10
331.3782049122
 20
-74.1130923346
 10
333.605854465
 20
-70.9054510235
 10
335.6777130882
 20
-67.5679160044
 10
337.5775656787
 20
-64.1266080142
 10
339.2905433143
 20
-60.6084599538
 10
340.8032396223
 20
-57.0410061017
 10
342.1038157032
 20
-53.4521666213
 10
343.1820927857
 20
-49.8700290476
 10
344.0296318896
 20
-46.3226284638
 10
344.6397998725
 20
-42.8377280892
 10
345.0078213424
 20
-39.4426019943
 10
345.1308160325
 20
-36.1638216441
  0
LWPOLYLINE
  5
E5
330
1F
100
AcDbEntity
  8
0
  6
Continuous
 62
     7
370
    25
100
AcDbPolyline
 90
       67
 70
   128
 43
0.0
 10
341.2417287359
 20
-38.4089439516
 10
341.1170172917
 20
-35.4577507806
 10
340.7440123653
 20
-32.6772728406
 10
340.1260919469
 20
-30.0926905703
 10
339.2688520197
 20
-27.7274103471
 10
338.1800558811
 20
-25.6028525148
 10
336.8695638376
 20
-23.7382573983
 10
335.349243908
 20
-22.1505110596
 10
333.6328643451
 20
-20.8539923754
 10
331.735968948
 20
-19.8604428198
 10
329.6757362951
 20
-19.1788601313
 10
327.4708241723
 20
-18.8154168283
 10
325.1412006054
 20
-18.7734043097
 10
322.707963026
 20
-19.0532030473
 10
320.1931472106
 20
-19.6522791404
 10
317.6195277204
 20
-20.5652072632
 10
315.0104116523
 20
-21.7837197972
 10
312.3894275652
 20
-23.2967817042
 10
309.780311497
 20
-25.0906904613
 10
307.2066920069
 20
-27.149200153
 10
304.6918761914
 20
-29.4536685968
 10
302.2586386121
 20
-31.9832261695
 10
299.9290150451
 20
-34.714964806
 10
297.7241029224
 20
-37.6241454584
 10
295.6638702695
 20
-40.684422136
 10
293.7669748724
 20
-43.8680804994
 10
292.0505953095
 20
-47.1462888454
 10
290.5302753799
 20
-50.4893592117
 10
289.2197833364
 20
-53.8670162353
 10
288.1309871978
 20
-57.2486713311
 10
287.2737472705
 20
-60.6036997069
 10
286.6558268522
 20
-63.9017177063
 10
286.2828219257
 20
-67.1128579675
 10
286.1581104815
 20
-70.2080399071
 10
286.2828219257
 20
-73.159233078
 10
286.6558268522
 20
-75.939711018
 10
287.2737472705
 20
-78.5242932883
 10
288.1309871978
 20
-80.8895735116
 10
289.2197833364
 20
-83.0141313438
 10
290.5302753799
 20
-84.8787264603
 10
292.0505953095
 20
-86.4664727991
 10
293.7669748724
 20
-87.7629914832
 10
295.6638702695
 20
-88.7565410389
 10
297.7241029224
 20
-89.4381237274
 10
299.9290150451
 20
-89.8015670304
 10
302.2586386121
 20
-89.843579549
 10
304.6918761914
 20
-89.5637808114
 10
307.2066920069
 20
-88.9647047182
 10
309.780311497
 20
-88.0517765954
 10
312.3894275652
 20
-86.8332640614
 10
315.0104116523
 20
-85.3202021544
 10
317.6195277204
 20
-83.5262933973
 10
320.1931472106
 20
-81.4677837056
 10
322.707963026
 20
-79.1633152619
 10
325.1412006054
 20
-76.6337576892
 10
327.4708241723
 20
-73.9020190526
 10
329.6757362951
 20
-70.9928384003
 10
331.735968948
 20
-67.9325617227
 10
333.6328643451
 20
-64.7489033593
 10
335.349243908
 20
-61.4706950132
 10
336.8695638376
 20
-58.1276246469
 10
338.1800558811
 20
-54.7499676234
 10
339.2688520197
 20
-51.3683125276
 10
340.1260919469
 20
-48.0132841517
 10
340.7440123653
 20
-44.7152661523
 10
341.1170172917
 20
-41.5041258911
 10
341.2417287359
 20
-38.4089439516
  0
LWPOLYLINE
  5
E6
330
1F
100
AcDbEntity
  8
0
  6
Continuous
 62
     7
370
    25
100
AcDbPolyline
 90
       10
 70
   128
 43
0.0
 10
380.4861550918
 20
-56.5740244396
 10
380.3631604018
 20
-53.4372507358
 10
379.9951389318
 20
-50.4670331857
 10
379.384970949
 20
-47.6866177687
 10
378.537431845
 20
-45.1177650054
 10
377.4591547625
 20
-42.7805796515
 10
376.1585786816
 20
-40.6933533514
 10
374.6458823736
 20
-38.8724214808
 10
372.9329047381
 20
-37.3320353005
 10
371.2784525009
 20
-36.2228227921
  0
LWPOLYLINE
  5
E7
330
1F
100
AcDbEntity
  8
0
  6
Continuous
 62
     7
370
    25
100
AcDbPolyline
 90
       28
 70
   128
 43
0.0
 10
326.8320648352
 20
-113.2145666577
 10
328.092877077
 20
-113.8641625599
 10
330.2447373488
 20
-114.6554719996
 10
332.5438154541
 20
-115.1342220089
 10
334.9721179896
 20
-115.2966657198
 10
337.5106401956
 20
-115.1415317901
 10
340.1395146939
 20
-114.670034353
 10
342.8381669771
 20
-113.8858635152
 10
345.5854764324
 20
-112.7951564769
 10
348.3599416381
 20
-111.4064494994
 10
351.1398486423
 20
-109.7306110977
 10
353.9034409036
 20
-107.7807569795
 10
356.6290895654
 20
-105.5721473969
 10
359.2954627316
 20
-103.1220677145
 10
361.8816924167
 20
-100.4496931277
 10
364.3675378671
 20
-97.5759385911
 10
366.7335439715
 20
-94.5232951302
 10
368.9611935244
 20
-91.315653819
 10
371.0330521475
 20
-87.9781188
 10
372.9329047381
 20
-84.5368108098
 10
374.6458823736
 20
-81.0186627493
 10
376.1585786816
 20
-77.4512088973
 10
377.4591547625
 20
-73.8623694169
 10
378.537431845
 20
-70.2802318431
 10
379.384970949
 20
-66.7328312593
 10
379.9951389318
 20
-63.2479308847
 10
380.3631604018
 20
-59.8528047899
 10
380.4861550918
 20
-56.5740244396
  0
LWPOLYLINE
  5
E8
330
1F
100
AcDbEntity
  8
0
  6
Continuous
 62
     7
370
    25
100
AcDbPolyline
 90
       11
 70
   128
 43
0.0
 10
540.6458410306
 20
-146.991222824
 10
540.5229453863
 20
-143.7665716295
 10
540.15516833
 20
-140.7076869149
 10
539.5452327542
 20
-137.8372155922
 10
538.6976544086
 20
-135.176409627
 10
537.6187084667
 20
-132.7449686956
 10
536.3163830667
 20
-130.5608943359
 10
534.8003201703
 20
-128.6403566705
 10
533.0817441767
 20
-126.9975746883
 10
531.1733788214
 20
-125.6447109723
 10
530.9202699025
 20
-125.4954091603
  0
LWPOLYLINE
  5
E9
330
1F
100
AcDbEntity
  8
0
  6
Continuous
 62
     7
370
    25
100
AcDbPolyline
 90
       29
 70
   128
 43
0.0
 10
483.9740854052
 20
-206.8173973378
 10
484.7419669985
 20
-207.2325920087
 10
486.9081139961
 20
-208.1324895725
 10
489.2263250351
 20
-208.7216108792
 10
491.6794368919
 20
-208.9955942809
 10
494.2492875847
 20
-208.9524113003
 10
496.916850838
 20
-208.5923816491
 10
499.6623769468
 20
-207.9181708608
 10
502.4655389963
 20
-206.9347705564
 10
505.3055833556
 20
-205.6494614874
 10
508.1614833298
 20
-204.0717596327
 10
511.0120948347
 20
-202.2133457448
 10
513.83631294
 20
-200.0879788698
 10
516.613228123
 20
-197.7113944805
 10
519.3222810753
 20
-195.1011879763
 10
521.9434149166
 20
-192.2766844128
 10
524.4572236889
 20
-189.2587954263
 10
526.8450960318
 20
-186.0698644109
 10
529.0893529736
 20
-182.7335010962
 10
531.1733788214
 20
-179.2744067488
 10
533.0817441767
 20
-175.7181912931
 10
534.8003201703
 20
-172.0911837042
 10
536.3163830667
 20
-168.4202370771
 10
537.6187084667
 20
-164.7325298164
 10
538.6976544086
 20
-161.0553644164
 10
539.5452327542
 20
-157.4159653232
 10
540.15516833
 20
-153.8412773745
 10
540.5229453863
 20
-150.357766309
 10
540.6458410306
 20
-146.991222824
  0
LWPOLYLINE
  5
EA
330
1F
100
AcDbEntity
  8
0
  6
Continuous
 62
     7
370
    25
100
AcDbPolyline
 90
       14
 70
   128
 43
0.0
 10
382.2539220448
 20
-55.5535142999
 10
382.1310264005
 20
-52.3288631054
 10
381.7632493442
 20
-49.2699783907
 10
381.1533137684
 20
-46.3995070681
 10
380.3057354228
 20
-43.7387011028
 10
379.2267894809
 20
-41.3072601714
 10
377.9244640809
 20
-39.1231858118
 10
376.4084011845
 20
-37.2026481464
 10
374.689825191
 20
-35.5598661642
 10
372.7814598356
 20
-34.2070024481
 10
370.6974339879
 20
-33.1540731279
 10
368.453177046
 20
-32.4088737238
 10
366.0653047032
 20
-31.9769214315
 10
363.7197300944
 20
-31.8592652277
  0
LWPOLYLINE
  5
EB
330
1F
100
AcDbEntity
  8
0
  6
Continuous
 62
     7
370
    25
100
AcDbPolyline
 90
       33
 70
   128
 43
0.0
 10
319.2733424287
 20
-108.8510090934
 10
319.507532762
 20
-109.2541423075
 10
320.918032871
 20
-111.3083502802
 10
322.5368511553
 20
-113.0916612447
 10
324.352002451
 20
-114.5908721906
 10
326.3500480128
 20
-115.7948834846
 10
328.5161950104
 20
-116.6947810483
 10
330.8344060493
 20
-117.283902355
 10
333.2875179061
 20
-117.5578857567
 10
335.8573685989
 20
-117.5147027761
 10
338.5249318522
 20
-117.1546731249
 10
341.270457961
 20
-116.4804623367
 10
344.0736200106
 20
-115.4970620322
 10
346.9136643698
 20
-114.2117529633
 10
349.769564344
 20
-112.6340511086
 10
352.6201758489
 20
-110.7756372206
 10
355.4443939542
 20
-108.6502703456
 10
358.2213091373
 20
-106.2736859563
 10
360.9303620895
 20
-103.6634794521
 10
363.5514959308
 20
-100.8389758887
 10
366.0653047032
 20
-97.8210869021
 10
368.453177046
 20
-94.6321558868
 10
370.6974339879
 20
-91.295792572
 10
372.7814598356
 20
-87.8366982247
 10
374.689825191
 20
-84.280482769
 10
376.4084011845
 20
-80.65347518
 10
377.9244640809
 20
-76.9825285529
 10
379.2267894809
 20
-73.2948212922
 10
380.3057354228
 20
-69.6176558923
 10
381.1533137684
 20
-65.9782567991
 10
381.7632493442
 20
-62.4035688503
 10
382.1310264005
 20
-58.9200577849
 10
382.2539220448
 20
-55.5535142999
  0
LWPOLYLINE
  5
EC
330
1F
100
AcDbEntity
  8
0
  6
Continuous
 62
     7
370
    25
100
AcDbPolyline
 90
       12
 70
   128
 43
0.0
 10
610.0837269431
 20
-178.7494983739
 10
609.9591528463
 20
-175.1600956488
 10
609.5861985968
 20
-171.7366529757
 10
608.9671635814
 20
-168.5002770171
 10
608.105864357
 20
-165.4709211069
 10
607.0076111196
 20
-162.6672622318
 10
605.6791749657
 20
-160.106585881
 10
604.1287461458
 20
-157.8046794757
 10
602.3658835693
 20
-155.7757350344
 10
600.4014558701
 20
-154.0322616742
 10
598.2475743983
 20
-152.5850084882
 10
598.2452521833
 20
-152.5836676842
  0
LWPOLYLINE
  5
ED
330
1F
100
AcDbEntity
  8
0
  6
Continuous
 62
     7
370
    25
100
AcDbPolyline
 90
       31
 70
   128
 43
0.0
 10
541.0998966132
 20
-251.5730526543
 10
543.4276302473
 20
-252.7138220649
 10
545.9194949043
 20
-253.543747819
 10
548.5578051951
 20
-254.0563723443
 10
551.3262950594
 20
-254.2485351401
 10
554.2078958366
 20
-254.1190514588
 10
557.1848414996
 20
-253.6687196104
 10
560.2387781886
 20
-252.9003160406
 10
563.3508773683
 20
-251.8185782127
 10
566.5019519123
 20
-250.4301754004
 10
569.6725743983
 20
-248.7436675685
 10
572.8431968843
 20
-246.7694525987
 10
575.9942714283
 20
-244.5197021828
 10
579.1063706079
 20
-242.0082867802
 10
582.1603072969
 20
-239.250690102
 10
585.1372529599
 20
-236.2639136488
 10
588.0188537371
 20
-233.0663718904
 10
590.7873436014
 20
-229.6777787353
 10
593.4256538922
 20
-226.1190259869
 10
595.9175185493
 20
-222.4120545395
 10
598.2475743983
 20
-218.5797191046
 10
600.4014558701
 20
-214.6456473046
 10
602.3658835693
 20
-210.6340940004
 10
604.1287461458
 20
-206.569791752
 10
605.6791749657
 20
-202.4777983344
 10
607.0076111196
 20
-198.3833422477
 10
608.105864357
 20
-194.3116671751
 10
608.9671635814
 20
-190.2878763476
 10
609.5861985968
 20
-186.3367777736
 10
609.9591528463
 20
-182.4827312896
 10
610.0837269431
 20
-178.7494983739
  0
LWPOLYLINE
  5
EE
330
1F
100
AcDbEntity
  8
0
  6
Continuous
 62
     7
370
    25
100
AcDbPolyline
 90
       19
 70
   128
 43
0.0
 10
547.8583301987
 20
-142.8275414537
 10
547.7337561019
 20
-139.2381387286
 10
547.3608018524
 20
-135.8146960555
 10
546.741766837
 20
-132.5783200969
 10
545.8804676126
 20
-129.5489641867
 10
544.7822143752
 20
-126.7453053116
 10
543.4537782212
 20
-124.1846289608
 10
541.9033494014
 20
-121.8827225555
 10
540.1404868249
 20
-119.8537781142
 10
538.1760591257
 20
-118.110304754
 10
536.0221776538
 20
-116.663051568
 10
533.6921218048
 20
-115.5209413533
 10
531.2002571478
 20
-114.6910155992
 10
528.561946857
 20
-114.178391074
 10
525.7934569927
 20
-113.9862282782
 10
522.9118562155
 20
-114.1157119595
 10
519.9349105525
 20
-114.5660438079
 10
516.8809738635
 20
-115.3344473777
 10
514.6261561216
 20
-116.0890174953
  0
LWPOLYLINE
  5
EF
330
1F
100
AcDbEntity
  8
0
  6
Continuous
 62
     7
370
    25
100
AcDbPolyline
 90
       39
 70
   128
 43
0.0
 10
467.6799716244
 20
-197.4110056728
 10
468.1525884707
 20
-199.7344864012
 10
469.0138876951
 20
-202.7638423113
 10
470.1121409325
 20
-205.5675011865
 10
471.4405770864
 20
-208.1281775373
 10
472.9910059063
 20
-210.4300839425
 10
474.7538684828
 20
-212.4590283839
 10
476.718296182
 20
-214.202501744
 10
478.8721776538
 20
-215.6497549301
 10
481.2022335028
 20
-216.7918651447
 10
483.6940981599
 20
-217.6217908988
 10
486.3324084507
 20
-218.1344154241
 10
489.100898315
 20
-218.3265782199
 10
491.9824990922
 20
-218.1970945386
 10
494.9594447552
 20
-217.7467626902
 10
498.0133814442
 20
-216.9783591204
 10
501.1254806238
 20
-215.8966212925
 10
504.2765551679
 20
-214.5082184802
 10
507.4471776538
 20
-212.8217106483
 10
510.6178001398
 20
-210.8474956785
 10
513.7688746839
 20
-208.5977452626
 10
516.8809738635
 20
-206.08632986
 10
519.9349105525
 20
-203.3287331818
 10
522.9118562155
 20
-200.3419567286
 10
525.7934569927
 20
-197.1444149702
 10
528.561946857
 20
-193.7558218151
 10
531.2002571478
 20
-190.1970690667
 10
533.6921218048
 20
-186.4900976193
 10
536.0221776538
 20
-182.6577621844
 10
538.1760591257
 20
-178.7236903844
 10
540.1404868249
 20
-174.7121370802
 10
541.9033494014
 20
-170.6478348318
 10
543.4537782212
 20
-166.5558414142
 10
544.7822143752
 20
-162.4613853275
 10
545.8804676126
 20
-158.3897102549
 10
546.741766837
 20
-154.3659194274
 10
547.3608018524
 20
-150.4148208534
 10
547.7337561019
 20
-146.5607743694
 10
547.8583301987
 20
-142.8275414537
  0
LWPOLYLINE
  5
F0
330
1F
100
AcDbEntity
  8
0
  6
Continuous
 62
     7
370
    25
100
AcDbPolyline
 90
        8
 70
   128
 43
0.0
 10
627.6553304556
 20
-198.8127277219
 10
627.5308138965
 20
-195.6371412952
 10
627.15823873
 20
-192.6301718968
 10
626.5405208621
 20
-189.8153531395
 10
625.6824947726
 20
-187.2147147964
 10
624.590875679
 20
-184.8486103887
 10
623.2742069807
 20
-182.7355578913
 10
622.944001595
 20
-182.2915708255
  0
LWPOLYLINE
  5
F1
330
1F
100
AcDbEntity
  8
0
  6
Continuous
 62
     7
370
    25
100
AcDbPolyline
 90
       25
 70
   128
 43
0.0
 10
579.1776832719
 20
-258.1052723937
 10
581.57812754
 20
-258.2619708628
 10
584.1480600319
 20
-258.1049173906
 10
586.8094627861
 20
-257.6275859019
 10
589.5415067174
 20
-256.8337121629
 10
592.3228098779
 20
-255.729509312
 10
595.1316047994
 20
-254.3236192335
 10
597.9459088531
 20
-252.6270449236
 10
600.7436962942
 20
-250.6530643764
 10
603.5030706426
 20
-248.4171266663
 10
606.2024360526
 20
-245.9367310373
 10
608.82066633
 20
-243.2312899483
 10
611.337270273
 20
-240.3219771441
 10
613.7325520436
 20
-237.2315619418
 10
615.9877653142
 20
-233.9842310307
 10
618.0852599833
 20
-230.6053991779
 10
620.0086203112
 20
-227.1215103239
 10
621.7427933955
 20
-223.5598306227
 10
623.2742069807
 20
-219.9482350469
 10
624.590875679
 20
-216.3149892288
 10
625.6824947726
 20
-212.6885282429
 10
626.5405208621
 20
-209.0972340636
 10
627.15823873
 20
-205.5692134369
 10
627.5308138965
 20
-202.1320779078
 10
627.6553304556
 20
-198.8127277219
  0
LWPOLYLINE
  5
F2
330
1F
100
AcDbEntity
  8
0
  6
Continuous
 62
     7
370
    25
100
AcDbPolyline
 90
       10
 70
   128
 43
0.0
 10
686.345193294
 20
-232.6936643626
 10
686.2206767349
 20
-229.5180779358
 10
685.8481015685
 20
-226.5111085375
 10
685.2303837006
 20
-223.6962897801
 10
684.3723576111
 20
-221.095651437
 10
683.2807385175
 20
-218.7295470293
 10
681.9640698192
 20
-216.616494532
 10
680.432656234
 20
-214.7730314459
 10
678.6984831496
 20
-213.2135853691
 10
677.023559625
 20
-212.0906480715
  0
LWPOLYLINE
  5
F3
330
1F
100
AcDbEntity
  8
0
  6
Continuous
 62
     7
370
    25
100
AcDbPolyline
 90
       28
 70
   128
 43
0.0
 10
632.0272166563
 20
-290.0350456857
 10
633.3036294996
 20
-290.6926793324
 10
635.4821157139
 20
-291.4937800026
 10
637.8096413549
 20
-291.9784538028
 10
640.2679903785
 20
-292.1429075034
 10
642.8379228704
 20
-291.9858540312
 10
645.4993256246
 20
-291.5085225426
 10
648.2313695559
 20
-290.7146488036
 10
651.0126727164
 20
-289.6104459526
 10
653.8214676378
 20
-288.2045558742
 10
656.6357716916
 20
-286.5079815642
 10
659.4335591327
 20
-284.5340010171
 10
662.1929334811
 20
-282.2980633069
 10
664.8922988911
 20
-279.8176676779
 10
667.5105291685
 20
-277.112226589
 10
670.0271331115
 20
-274.2029137847
 10
672.422414882
 20
-271.1124985825
 10
674.6776281526
 20
-267.8651676713
 10
676.7751228217
 20
-264.4863358185
 10
678.6984831496
 20
-261.0024469646
 10
680.432656234
 20
-257.4407672633
 10
681.9640698192
 20
-253.8291716875
 10
683.2807385175
 20
-250.1959258694
 10
684.3723576111
 20
-246.5694648836
 10
685.2303837006
 20
-242.9781707042
 10
685.8481015685
 20
-239.4501500776
 10
686.2206767349
 20
-236.0130145484
 10
686.345193294
 20
-232.6936643626
  0
ENDSEC
  0
SECTION
  2
OBJECTS
  0
DICTIONARY
  5
C
330
0
100
AcDbDictionary
281
     1
  3
ACAD_GROUP
350
D
  3
ACAD_LAYOUT
350
1A
  3
ACAD_MLINESTYLE
350
17
  3
ACAD_PLOTSETTINGS
350
19
  3
ACAD_PLOTSTYLENAME
350
E
  3
ACAD_SCALELIST
350
47
  3
DWGPROPS
350
F4
  0
DICTIONARY
  5
D
102
{ACAD_REACTORS
330
C
102
}
330
C
100
AcDbDictionary
281
     1
  0
DICTIONARY
  5
1A
102
{ACAD_REACTORS
330
C
102
}
330
C
100
AcDbDictionary
281
     1
  3
Layout1
350
1E
  3
Layout2
350
26
  3
Model
350
22
  0
DICTIONARY
  5
17
102
{ACAD_REACTORS
330
C
102
}
330
C
100
AcDbDictionary
281
     1
  3
Standard
350
18
  0
DICTIONARY
  5
19
102
{ACAD_REACTORS
330
C
102
}
330
C
100
AcDbDictionary
281
     1
  0
ACDBDICTIONARYWDFLT
  5
E
102
{ACAD_REACTORS
330
C
102
}
330
C
100
AcDbDictionary
281
     1
  3
Normal
350
F
100
AcDbDictionaryWithDefault
340
F
  0
DICTIONARY
  5
47
102
{ACAD_REACTORS
330
C
102
}
330
C
100
AcDbDictionary
281
     1
  3
A0
350
48
  3
A1
350
49
  3
A2
350
4A
  3
A3
350
4B
  3
A4
350
4C
  3
A5
350
4D
  3
A6
350
4E
  3
A7
350
4F
  3
A8
350
50
  3
A9
350
51
  3
B0
350
52
  3
B1
350
53
  3
B2
350
54
  3
B3
350
55
  3
B4
350
56
  3
B5
350
57
  3
B6
350
58
  3
B7
350
59
  3
B8
350
5A
  3
B9
350
5B
  3
C0
350
5C
  3
C1
350
5D
  3
C2
350
5E
  3
C3
350
5F
  3
C4
350
60
  3
C5
350
61
  3
C6
350
62
  3
C7
350
63
  3
C8
350
64
  3
C9
350
65
  3
D0
350
66
  3
D1
350
67
  3
D2
350
68
  0
XRECORD
  5
F4
102
{ACAD_REACTORS
330
C
102
}
330
C
100
AcDbXrecord
280
     1
  1
DWGPROPS COOKIE
  2

  3

  4

  6

  7

  8
b.kav
  9

300
=
301
=
302
=
303
=
304
=
305
=
306
=
307
=
308
=
309
=
 40
0.0
 41
2459935.584664306
 42
2459935.584664491
  1

 90
        0
  0
LAYOUT
  5
1E
102
{ACAD_REACTORS
330
1A
102
}
330
1A
100
AcDbPlotSettings
  1

  2
none_device
  4

  6

 40
0.0
 41
0.0
 42
0.0
 43
0.0
 44
0.0
 45
0.0
 46
0.0
 47
0.0
 48
0.0
 49
0.0
140
0.0
141
0.0
142
1.0
143
1.0
 70
   688
 72
     1
 73
     0
 74
     5
  7

 75
    16
147
1.0
148
0.0
149
0.0
100
AcDbLayout
  1
Layout1
 70
     1
 71
     1
 10
0.0
 20
0.0
 11
420.0
 21
297.0
 12
0.0
 22
0.0
 32
0.0
 14
1.0000000000E+20
 24
1.0000000000E+20
 34
1.0000000000E+20
 15
-1.0000000000E+20
 25
-1.0000000000E+20
 35
-1.0000000000E+20
146
0.0
 13
0.0
 23
0.0
 33
0.0
 16
1.0
 26
0.0
 36
0.0
 17
0.0
 27
1.0
 37
0.0
 76
     0
330
1B
  0
LAYOUT
  5
26
102
{ACAD_REACTORS
330
1A
102
}
330
1A
100
AcDbPlotSettings
  1

  2
none_device
  4

  6

 40
0.0
 41
0.0
 42
0.0
 43
0.0
 44
0.0
 45
0.0
 46
0.0
 47
0.0
 48
0.0
 49
0.0
140
0.0
141
0.0
142
1.0
143
1.0
 70
   688
 72
     1
 73
     0
 74
     5
  7

 75
    16
147
1.0
148
0.0
149
0.0
100
AcDbLayout
  1
Layout2
 70
     1
 71
     2
 10
0.0
 20
0.0
 11
0.0
 21
0.0
 12
0.0
 22
0.0
 32
0.0
 14
0.0
 24
0.0
 34
0.0
 15
0.0
 25
0.0
 35
0.0
146
0.0
 13
0.0
 23
0.0
 33
0.0
 16
1.0
 26
0.0
 36
0.0
 17
0.0
 27
1.0
 37
0.0
 76
     0
330
23
  0
LAYOUT
  5
22
102
{ACAD_REACTORS
330
1A
102
}
330
1A
100
AcDbPlotSettings
  1

  2
none_device
  4
Letter_(8.50_x_11.00_Inches)
  6

 40
6.35
 41
6.35
 42
6.35000508
 43
6.35000508
 44
215.9
 45
279.4
 46
0.0
 47
0.0
 48
0.0
 49
0.0
140
0.0
141
0.0
142
1.0
143
1.0
 70
  1712
 72
     1
 73
     0
 74
     0
  7

 75
     0
147
1.0
148
0.0
149
0.0
100
AcDbLayout
  1
Model
 70
     1
 71
     0
 10
0.0
 20
0.0
 11
279.4
 21
215.9
 12
0.0
 22
0.0
 32
0.0
 14
0.0
 24
0.0
 34
0.0
 15
279.4
 25
215.9
 35
0.0
146
0.0
 13
0.0
 23
0.0
 33
0.0
 16
1.0
 26
0.0
 36
0.0
 17
0.0
 27
1.0
 37
0.0
 76
     0
330
1F
331
29
  0
MLINESTYLE
  5
18
102
{ACAD_REACTORS
330
17
102
}
330
17
100
AcDbMlineStyle
  2
Standard
 70
     0
  3

 62
   256
 51
90.0
 52
90.0
 71
     2
 49
0.5
 62
   256
  6
BYLAYER
 49
-0.5
 62
   256
  6
BYLAYER
  0
ACDBPLACEHOLDER
  5
F
102
{ACAD_REACTORS
330
E
102
}
330
E
  0
SCALE
  5
48
102
{ACAD_REACTORS
330
47
102
}
330
47
100
AcDbScale
 70
     0
300
1:1
140
1.0
141
1.0
290
     1
  0
SCALE
  5
49
102
{ACAD_REACTORS
330
47
102
}
330
47
100
AcDbScale
 70
     0
300
1:2
140
1.0
141
2.0
290
     0
  0
SCALE
  5
4A
102
{ACAD_REACTORS
330
47
102
}
330
47
100
AcDbScale
 70
     0
300
1:4
140
1.0
141
4.0
290
     0
  0
SCALE
  5
4B
102
{ACAD_REACTORS
330
47
102
}
330
47
100
AcDbScale
 70
     0
300
1:5
140
1.0
141
5.0
290
     0
  0
SCALE
  5
4C
102
{ACAD_REACTORS
330
47
102
}
330
47
100
AcDbScale
 70
     0
300
1:8
140
1.0
141
8.0
290
     0
  0
SCALE
  5
4D
102
{ACAD_REACTORS
330
47
102
}
330
47
100
AcDbScale
 70
     0
300
1:10
140
1.0
141
10.0
290
     0
  0
SCALE
  5
4E
102
{ACAD_REACTORS
330
47
102
}
330
47
100
AcDbScale
 70
     0
300
1:16
140
1.0
141
16.0
290
     0
  0
SCALE
  5
4F
102
{ACAD_REACTORS
330
47
102
}
330
47
100
AcDbScale
 70
     0
300
1:20
140
1.0
141
20.0
290
     0
  0
SCALE
  5
50
102
{ACAD_REACTORS
330
47
102
}
330
47
100
AcDbScale
 70
     0
300
1:30
140
1.0
141
30.0
290
     0
  0
SCALE
  5
51
102
{ACAD_REACTORS
330
47
102
}
330
47
100
AcDbScale
 70
     0
300
1:40
140
1.0
141
40.0
290
     0
  0
SCALE
  5
52
102
{ACAD_REACTORS
330
47
102
}
330
47
100
AcDbScale
 70
     0
300
1:50
140
1.0
141
50.0
290
     0
  0
SCALE
  5
53
102
{ACAD_REACTORS
330
47
102
}
330
47
100
AcDbScale
 70
     0
300
1:100
140
1.0
141
100.0
290
     0
  0
SCALE
  5
54
102
{ACAD_REACTORS
330
47
102
}
330
47
100
AcDbScale
 70
     0
300
2:1
140
2.0
141
1.0
290
     0
  0
SCALE
  5
55
102
{ACAD_REACTORS
330
47
102
}
330
47
100
AcDbScale
 70
     0
300
4:1
140
4.0
141
1.0
290
     0
  0
SCALE
  5
56
102
{ACAD_REACTORS
330
47
102
}
330
47
100
AcDbScale
 70
     0
300
8:1
140
8.0
141
1.0
290
     0
  0
SCALE
  5
57
102
{ACAD_REACTORS
330
47
102
}
330
47
100
AcDbScale
 70
     0
300
10:1
140
10.0
141
1.0
290
     0
  0
SCALE
  5
58
102
{ACAD_REACTORS
330
47
102
}
330
47
100
AcDbScale
 70
     0
300
100:1
140
100.0
141
1.0
290
     0
  0
SCALE
  5
59
102
{ACAD_REACTORS
330
47
102
}
330
47
100
AcDbScale
 70
     0
300
1/128" = 1'-0"
140
0.0078125
141
12.0
290
     0
  0
SCALE
  5
5A
102
{ACAD_REACTORS
330
47
102
}
330
47
100
AcDbScale
 70
     0
300
1/64" = 1'-0"
140
0.015625
141
12.0
290
     0
  0
SCALE
  5
5B
102
{ACAD_REACTORS
330
47
102
}
330
47
100
AcDbScale
 70
     0
300
1/32" = 1'-0"
140
0.03125
141
12.0
290
     0
  0
SCALE
  5
5C
102
{ACAD_REACTORS
330
47
102
}
330
47
100
AcDbScale
 70
     0
300
1/16" = 1'-0"
140
0.0625
141
12.0
290
     0
  0
SCALE
  5
5D
102
{ACAD_REACTORS
330
47
102
}
330
47
100
AcDbScale
 70
     0
300
3/32" = 1'-0"
140
0.09375
141
12.0
290
     0
  0
SCALE
  5
5E
102
{ACAD_REACTORS
330
47
102
}
330
47
100
AcDbScale
 70
     0
300
1/8" = 1'-0"
140
0.125
141
12.0
290
     0
  0
SCALE
  5
5F
102
{ACAD_REACTORS
330
47
102
}
330
47
100
AcDbScale
 70
     0
300
3/16" = 1'-0"
140
0.1875
141
12.0
290
     0
  0
SCALE
  5
60
102
{ACAD_REACTORS
330
47
102
}
330
47
100
AcDbScale
 70
     0
300
1/4" = 1'-0"
140
0.25
141
12.0
290
     0
  0
SCALE
  5
61
102
{ACAD_REACTORS
330
47
102
}
330
47
100
AcDbScale
 70
     0
300
3/8" = 1'-0"
140
0.375
141
12.0
290
     0
  0
SCALE
  5
62
102
{ACAD_REACTORS
330
47
102
}
330
47
100
AcDbScale
 70
     0
300
1/2" = 1'-0"
140
0.5
141
12.0
290
     0
  0
SCALE
  5
63
102
{ACAD_REACTORS
330
47
102
}
330
47
100
AcDbScale
 70
     0
300
3/4" = 1'-0"
140
0.75
141
12.0
290
     0
  0
SCALE
  5
64
102
{ACAD_REACTORS
330
47
102
}
330
47
100
AcDbScale
 70
     0
300
1" = 1'-0"
140
1.0
141
12.0
290
     0
  0
SCALE
  5
65
102
{ACAD_REACTORS
330
47
102
}
330
47
100
AcDbScale
 70
     0
300
1-1/2" = 1'-0"
140
1.5
141
12.0
290
     0
  0
SCALE
  5
66
102
{ACAD_REACTORS
330
47
102
}
330
47
100
AcDbScale
 70
     0
300
3" = 1'-0"
140
3.0
141
12.0
290
     0
  0
SCALE
  5
67
102
{ACAD_REACTORS
330
47
102
}
330
47
100
AcDbScale
 70
     0
300
6" = 1'-0"
140
6.0
141
12.0
290
     0
  0
SCALE
  5
68
102
{ACAD_REACTORS
330
47
102
}
330
47
100
AcDbScale
 70
     0
300
1'-0" = 1'-0"
140
12.0
141
12.0
290
     0
  0
ENDSEC
  0
EOF
